Skoro już tu jesteś i czytasz to zostaw po sobie jakiś znak!
Komentarze jak wszędzie tak i tu są mile widziane !!!

czwartek, 23 sierpnia 2007

Under the bridge - RHCP - kultowy kawałek

No, to mamy 1991 rok i 21letniego Frusciante. Mamy też najlepszy kawałek RHCP, i wersje akustyczną z Amsterdamu. Nagranie jest z września 91' mimo podpisu 92' na końcu kawałka.

To druga płyta Fru z RHCP. BSSM jest na 310 miejscu na liście 500 albumów wszech czasów magazynu Rolling Stone. Sam kawałek jest najbardziej rozpoznawalnym i kojarzonym z zespołem.
O tym utworze szeroko jest pisane w biografii Tośka "Blizna".




Ten kawałek RHCP grają zawsze na deser dla fanów pod koniec każdego koncertu ( ;/ chociaż znam koncert na którym NIE ZAGRALI !!!!!!!!!!!).




Tekst utworu:

Under the bridge
Blood Sugar Sex Magik (1991)

Sometimes I feel
Like I don't have a partner
Sometimes I feel
Like my only friend
Is the city I live in
The city of angels
Lonely as I am
Together we cry

I drive on her streets
'Cause she's my companion
I walk through her hills
'Cause she knows who I am
She sees my good deeds
And she kisses me windy
I never worry
Now that is a lie

I don't ever want to feel
Like I did that day
Take me to the place I love
Take me all the way

It's hard to believe
That there's nobody out there
It's hard to believe
That I'm all alone
At least I have her love
The city she loves me
Lonely as I am
Together we cry

I don't ever want to feel
Like I did that day
Take me to the place I love
Take me all that way

Under the bridge downtown
Is where I drew some blood
Under the bridge downtown
I could not get enough
Under the bridge downtown
Forgot about my love
Under the bridge downtown
I gave my life away

Under The Bridge:

intro
E :--------------------------------------------------------------------
B :3------------------3---------------------2--------------------------
G :----------2---------------2-----------------------------------3-----
D :-----4-----------4-----------------------------------4------------4-
A :5------------------------------4---2-0---------4------------4-------
E :---------------------------------------4-2--------------------------
E :-----------------------------------------------------------------------
B :-----------------------3-------------------------3-h5-p3---------------
G :----------------------------------------2------------------2-----------
D :------4-----2---0-----------------4----------4--------------------4-\-6
A :-------------------2---5----------------5-------------------------5-\-7
E :-----------------------------------------------------------------------
E :--------------------------------------------------------------------
B :--------------------------------------------------3--------------3--
G :---------------------------------3-------------------------2--------
D :----6----------------------4---------4----4-2-0-------4--------4----
A :----7-------------4------------4----------------2-5-----------------
E :------------2-------------------------------------------------------
E :--------------------------------------------------------------------
B :---------------2-------------------------------------------3--------
G :-2-----------------------------2------------------------------------
D :-----------------------4-----------4----4-----2----0---------------4
A :------4--2-0-------4---------4-------------------------2---5--------
E :-------------4-2----------------------------------------------------
E :--------------------------------------------------------------------
B :------------3-h5-p3-------------------------------------------------
G :---2----------------2--------------------------------------------3--
D :--------4---------------------4-\6-6----------------4---------------
A :---5--------------------------5-\7-7-----------4------------4-------
E :-----------------------------------------2--------------------------
E :---------------------------------
B :---------------------------------
G :----------3----------------------
D :-4-------------4-----------------
A :--------4----------4-\7----------
E :---------------------------------

Jest zaciasno na blogu i wychodzą jakieś bzdury. Zobaczcie lepiej opisane TUTAJ
A tu lekcja prowadzona przez Johna :


Moje ulubione zdjęcia z tego okresu,
(1990-1992 nie znalazłam dokładnej daty).





Brak komentarzy:

Prześlij komentarz

Related Posts Plugin for WordPress, Blogger...

Walentynkowo :D:D:D